  0
SECTION
  2
HEADER
  9
$ACADVER
  1
AC1014
  9
$HANDSEED
  5
FFFF
  9
$MEASUREMENT
 70
     1
  0
ENDSEC
  0
SECTION
  2
TABLES
  0
TABLE
  2
VPORT
  5
8
330
0
100
AcDbSymbolTable
 70
     4
  0
VPORT
  5
2E
330
8
100
AcDbSymbolTableRecord
100
AcDbViewportTableRecord
  2
*ACTIVE
 70
     0
 10
0.0
 20
0.0
 11
1.0
 21
1.0
 12
210.0
 22
148.5
 13
0.0
 23
0.0
 14
10.0
 24
10.0
 15
10.0
 25
10.0
 16
0.0
 26
0.0
 36
1.0
 17
0.0
 27
0.0
 37
0.0
 40
341.0
 41
1.24
 42
50.0
 43
0.0
 44
0.0
 50
0.0
 51
0.0
 71
     0
 72
   100
 73
     1
 74
     3
 75
     0
 76
     0
 77
     0
 78
     0
  0
ENDTAB
  0
TABLE
  2
LTYPE
  5
5
330
0
100
AcDbSymbolTable
 70
     1
  0
LTYPE
  5
14
330
5
100
AcDbSymbolTableRecord
100
AcDbLinetypeTableRecord
  2
BYBLOCK
 70
     0
  3

 72
    65
 73
     0
 40
0.0
  0
LTYPE
  5
15
330
5
100
AcDbSymbolTableRecord
100
AcDbLinetypeTableRecord
  2
BYLAYER
 70
     0
  3

 72
    65
 73
     0
 40
0.0
  0
LTYPE
  5
16
330
5
100
AcDbSymbolTableRecord
100
AcDbLinetypeTableRecord
  2
CONTINUOUS
 70
     0
  3
Solid line
 72
    65
 73
     0
 40
0.0
  0
ENDTAB
  0
TABLE
  2
LAYER
  5
2
100
AcDbSymbolTable
 70
2
  0
LAYER
  5
50
100
AcDbSymbolTableRecord
100
AcDbLayerTableRecord
  2
0
 70
0
  6
CONTINUOUS
  0
LAYER
  5
51
100
AcDbSymbolTableRecord
100
AcDbLayerTableRecord
  2
noname
 70
0
  6
CONTINUOUS
  0
ENDTAB
  0
TABLE
  2
STYLE
  5
3
330
0
100
AcDbSymbolTable
 70
     1
  0
STYLE
  5
11
330
3
100
AcDbSymbolTableRecord
100
AcDbTextStyleTableRecord
  2
STANDARD
 70
     0
 40
0.0
 41
1.0
 50
0.0
 71
     0
 42
2.5
  3
txt
  4

  0
ENDTAB
  0
TABLE
  2
VIEW
  5
6
330
0
100
AcDbSymbolTable
 70
     0
  0
ENDTAB
  0
TABLE
  2
UCS
  5
7
330
0
100
AcDbSymbolTable
 70
     0
  0
ENDTAB
  0
TABLE
  2
APPID
  5
9
330
0
100
AcDbSymbolTable
 70
     2
  0
APPID
  5
12
330
9
100
AcDbSymbolTableRecord
100
AcDbRegAppTableRecord
  2
ACAD
 70
     0
  0
ENDTAB
  0
TABLE
  2
DIMSTYLE
  5
A
330
0
100
AcDbSymbolTable
 70
     1
  0
DIMSTYLE
105
27
330
A
100
AcDbSymbolTableRecord
100
AcDbDimStyleTableRecord
  2
ISO-25
 70
     0
  3

  4

  5

  6

  7

 40
1.0
 41
2.5
 42
0.625
 43
3.75
 44
1.25
 45
0.0
 46
0.0
 47
0.0
 48
0.0
140
2.5
141
2.5
142
0.0
143
0.03937007874016
144
1.0
145
0.0
146
1.0
147
0.625
 71
     0
 72
     0
 73
     0
 74
     0
 75
     0
 76
     0
 77
     1
 78
     8
170
     0
171
     3
172
     1
173
     0
174
     0
175
     0
176
     0
177
     0
178
     0
270
     2
271
     2
272
     2
273
     2
274
     3
340
11
275
     0
280
     0
281
     0
282
     0
283
     0
284
     8
285
     0
286
     0
287
     3
288
     0
  0
ENDTAB
  0
TABLE
  2
BLOCK_RECORD
  5
1
330
0
100
AcDbSymbolTable
 70
     1
  0
BLOCK_RECORD
  5
1F
330
1
100
AcDbSymbolTableRecord
100
AcDbBlockTableRecord
  2
*MODEL_SPACE
  0
BLOCK_RECORD
  5
1B
330
1
100
AcDbSymbolTableRecord
100
AcDbBlockTableRecord
  2
*PAPER_SPACE
  0
ENDTAB
  0
ENDSEC
  0
SECTION
  2
BLOCKS
  0
BLOCK
  5
20
330
1F
100
AcDbEntity
  8
0
100
AcDbBlockBegin
  2
*MODEL_SPACE
 70
     0
 10
0.0
 20
0.0
 30
0.0
  3
*MODEL_SPACE
  1

  0
ENDBLK
  5
21
330
1F
100
AcDbEntity
  8
0
100
AcDbBlockEnd
  0
BLOCK
  5
1C
330
1B
100
AcDbEntity
 67
     1
  8
0
100
AcDbBlockBegin
  2
*PAPER_SPACE
  1

  0
ENDBLK
  5
1D
330
1B
100
AcDbEntity
 67
     1
  8
0
100
AcDbBlockEnd
  0
ENDSEC
  0
SECTION
  2
ENTITIES
  0
SPLINE
  5
100
100
AcDbEntity
  8
0
 62
7
100
AcDbSpline
 70
8
 71
3
 72
8
 73
4
 74
0
 40
0
 40
0
 40
0
 40
0
 40
1
 40
1
 40
1
 40
1
 10
41.210171
 20
169.603390
 30
0.0
 10
40.653216
 20
169.603391
 30
0.0
 10
40.119072
 20
169.382141
 30
0.0
 10
39.725245
 20
168.988315
 30
0.0
  0
SPLINE
  5
101
100
AcDbEntity
  8
0
 62
7
100
AcDbSpline
 70
8
 71
3
 72
8
 73
4
 74
0
 40
0
 40
0
 40
0
 40
0
 40
1
 40
1
 40
1
 40
1
 10
39.725245
 20
168.988315
 30
0.0
 10
39.331418
 20
168.594488
 30
0.0
 10
39.110169
 20
168.060344
 30
0.0
 10
39.110169
 20
167.503389
 30
0.0
  0
SPLINE
  5
102
100
AcDbEntity
  8
0
 62
7
100
AcDbSpline
 70
8
 71
3
 72
8
 73
4
 74
0
 40
0
 40
0
 40
0
 40
0
 40
1
 40
1
 40
1
 40
1
 10
39.110169
 20
152.803390
 30
0.0
 10
39.110169
 20
152.246435
 30
0.0
 10
39.331418
 20
151.712291
 30
0.0
 10
39.725245
 20
151.318464
 30
0.0
  0
SPLINE
  5
103
100
AcDbEntity
  8
0
 62
7
100
AcDbSpline
 70
8
 71
3
 72
8
 73
4
 74
0
 40
0
 40
0
 40
0
 40
0
 40
1
 40
1
 40
1
 40
1
 10
39.725245
 20
151.318464
 30
0.0
 10
40.119072
 20
150.924638
 30
0.0
 10
40.653216
 20
150.703388
 30
0.0
 10
41.210171
 20
150.703389
 30
0.0
  0
SPLINE
  5
104
100
AcDbEntity
  8
0
 62
7
100
AcDbSpline
 70
8
 71
3
 72
8
 73
4
 74
0
 40
0
 40
0
 40
0
 40
0
 40
1
 40
1
 40
1
 40
1
 10
65.137527
 20
169.603390
 30
0.0
 10
64.696108
 20
169.603390
 30
0.0
 10
64.301823
 20
169.327308
 30
0.0
 10
64.150850
 20
168.912510
 30
0.0
  0
LWPOLYLINE
  5
105
100
AcDbEntity
  8
0
 62
7
100
AcDbPolyline
 90
2
 70
0
 10
39.110169
 20
167.503389
 30
0.0
 10
39.110169
 20
152.803390
 30
0.0
  0
LWPOLYLINE
  5
106
100
AcDbEntity
  8
0
 62
7
100
AcDbPolyline
 90
2
 70
0
 10
65.137527
 20
169.603390
 30
0.0
 10
104.210172
 20
169.603390
 30
0.0
  0
SPLINE
  5
107
100
AcDbEntity
  8
0
 62
7
100
AcDbSpline
 70
8
 71
3
 72
8
 73
4
 74
0
 40
0
 40
0
 40
0
 40
0
 40
1
 40
1
 40
1
 40
1
 10
55.421716
 20
168.261370
 30
0.0
 10
55.533305
 20
168.567958
 30
0.0
 10
55.488313
 20
168.909706
 30
0.0
 10
55.301176
 20
169.176967
 30
0.0
  0
SPLINE
  5
108
100
AcDbEntity
  8
0
 62
7
100
AcDbSpline
 70
8
 71
3
 72
8
 73
4
 74
0
 40
0
 40
0
 40
0
 40
0
 40
1
 40
1
 40
1
 40
1
 10
55.301176
 20
169.176967
 30
0.0
 10
55.114038
 20
169.444227
 30
0.0
 10
54.808288
 20
169.603390
 30
0.0
 10
54.482024
 20
169.603390
 30
0.0
  0
LWPOLYLINE
  5
109
100
AcDbEntity
  8
0
 62
7
100
AcDbPolyline
 90
2
 70
0
 10
41.210171
 20
169.603390
 30
0.0
 10
54.482024
 20
169.603390
 30
0.0
  0
SPLINE
  5
10a
100
AcDbEntity
  8
0
 62
7
100
AcDbSpline
 70
8
 71
3
 72
8
 73
4
 74
0
 40
0
 40
0
 40
0
 40
0
 40
1
 40
1
 40
1
 40
1
 10
52.850124
 20
161.195982
 30
0.0
 10
52.661232
 20
160.677004
 30
0.0
 10
52.928820
 20
160.103162
 30
0.0
 10
53.447798
 20
159.914270
 30
0.0
  0
LWPOLYLINE
  5
10b
100
AcDbEntity
  8
0
 62
7
100
AcDbPolyline
 90
2
 70
0
 10
55.421716
 20
168.261370
 30
0.0
 10
52.850124
 20
161.195982
 30
0.0
  0
LWPOLYLINE
  5
10c
100
AcDbEntity
  8
0
 62
7
100
AcDbPolyline
 90
2
 70
0
 10
53.447798
 20
159.914270
 30
0.0
 10
59.067158
 20
157.868988
 30
0.0
  0
SPLINE
  5
10d
100
AcDbEntity
  8
0
 62
7
100
AcDbSpline
 70
8
 71
3
 72
8
 73
4
 74
0
 40
0
 40
0
 40
0
 40
0
 40
1
 40
1
 40
1
 40
1
 10
59.067158
 20
157.868988
 30
0.0
 10
59.586136
 20
157.680096
 30
0.0
 10
60.159978
 20
157.947684
 30
0.0
 10
60.348870
 20
158.466662
 30
0.0
  0
SPLINE
  5
10e
100
AcDbEntity
  8
0
 62
7
100
AcDbSpline
 70
8
 71
3
 72
8
 73
4
 74
0
 40
0
 40
0
 40
0
 40
0
 40
1
 40
1
 40
1
 40
1
 10
179.310171
 20
166.453390
 30
0.0
 10
179.310171
 20
167.288822
 30
0.0
 10
178.978297
 20
168.090037
 30
0.0
 10
178.387557
 20
168.680777
 30
0.0
  0
SPLINE
  5
10f
100
AcDbEntity
  8
0
 62
7
100
AcDbSpline
 70
8
 71
3
 72
8
 73
4
 74
0
 40
0
 40
0
 40
0
 40
0
 40
1
 40
1
 40
1
 40
1
 10
178.387557
 20
168.680777
 30
0.0
 10
177.796818
 20
169.271516
 30
0.0
 10
176.995603
 20
169.603391
 30
0.0
 10
176.160170
 20
169.603390
 30
0.0
  0
LWPOLYLINE
  5
110
100
AcDbEntity
  8
0
 62
7
100
AcDbPolyline
 90
2
 70
0
 10
64.150850
 20
168.912510
 30
0.0
 10
60.348870
 20
158.466662
 30
0.0
  0
SPLINE
  5
111
100
AcDbEntity
  8
0
 62
7
100
AcDbSpline
 70
8
 71
3
 72
8
 73
4
 74
0
 40
0
 40
0
 40
0
 40
0
 40
1
 40
1
 40
1
 40
1
 10
176.160170
 20
150.703389
 30
0.0
 10
176.995603
 20
150.703388
 30
0.0
 10
177.796818
 20
151.035262
 30
0.0
 10
178.387557
 20
151.626002
 30
0.0
  0
SPLINE
  5
112
100
AcDbEntity
  8
0
 62
7
100
AcDbSpline
 70
8
 71
3
 72
8
 73
4
 74
0
 40
0
 40
0
 40
0
 40
0
 40
1
 40
1
 40
1
 40
1
 10
178.387557
 20
151.626002
 30
0.0
 10
178.978297
 20
152.216742
 30
0.0
 10
179.310171
 20
153.017957
 30
0.0
 10
179.310171
 20
153.853389
 30
0.0
  0
SPLINE
  5
113
100
AcDbEntity
  8
0
 62
7
100
AcDbSpline
 70
8
 71
3
 72
8
 73
4
 74
0
 40
0
 40
0
 40
0
 40
0
 40
1
 40
1
 40
1
 40
1
 10
154.269491
 20
168.912510
 30
0.0
 10
154.118517
 20
169.327308
 30
0.0
 10
153.724232
 20
169.603390
 30
0.0
 10
153.282814
 20
169.603390
 30
0.0
  0
LWPOLYLINE
  5
114
100
AcDbEntity
  8
0
 62
7
100
AcDbPolyline
 90
2
 70
0
 10
179.310171
 20
166.453390
 30
0.0
 10
179.310171
 20
153.853389
 30
0.0
  0
SPLINE
  5
115
100
AcDbEntity
  8
0
 62
7
100
AcDbSpline
 70
8
 71
3
 72
8
 73
4
 74
0
 40
0
 40
0
 40
0
 40
0
 40
1
 40
1
 40
1
 40
1
 10
164.938318
 20
169.603390
 30
0.0
 10
164.612053
 20
169.603390
 30
0.0
 10
164.306303
 20
169.444227
 30
0.0
 10
164.119165
 20
169.176967
 30
0.0
  0
SPLINE
  5
116
100
AcDbEntity
  8
0
 62
7
100
AcDbSpline
 70
8
 71
3
 72
8
 73
4
 74
0
 40
0
 40
0
 40
0
 40
0
 40
1
 40
1
 40
1
 40
1
 10
164.119165
 20
169.176967
 30
0.0
 10
163.932028
 20
168.909706
 30
0.0
 10
163.887036
 20
168.567958
 30
0.0
 10
163.998625
 20
168.261370
 30
0.0
  0
LWPOLYLINE
  5
117
100
AcDbEntity
  8
0
 62
7
100
AcDbPolyline
 90
2
 70
0
 10
164.938318
 20
169.603390
 30
0.0
 10
176.160170
 20
169.603390
 30
0.0
  0
SPLINE
  5
118
100
AcDbEntity
  8
0
 62
7
100
AcDbSpline
 70
8
 71
3
 72
8
 73
4
 74
0
 40
0
 40
0
 40
0
 40
0
 40
1
 40
1
 40
1
 40
1
 10
165.855565
 20
160.235661
 30
0.0
 10
166.374543
 20
160.424554
 30
0.0
 10
166.642131
 20
160.998396
 30
0.0
 10
166.453239
 20
161.517374
 30
0.0
  0
LWPOLYLINE
  5
119
100
AcDbEntity
  8
0
 62
7
100
AcDbPolyline
 90
2
 70
0
 10
163.998625
 20
168.261370
 30
0.0
 10
166.453239
 20
161.517374
 30
0.0
  0
LWPOLYLINE
  5
11a
100
AcDbEntity
  8
0
 62
7
100
AcDbPolyline
 90
2
 70
0
 10
159.353182
 20
157.868988
 30
0.0
 10
165.855565
 20
160.235661
 30
0.0
  0
SPLINE
  5
11b
100
AcDbEntity
  8
0
 62
7
100
AcDbSpline
 70
8
 71
3
 72
8
 73
4
 74
0
 40
0
 40
0
 40
0
 40
0
 40
1
 40
1
 40
1
 40
1
 10
158.071470
 20
158.466662
 30
0.0
 10
158.260362
 20
157.947684
 30
0.0
 10
158.834204
 20
157.680096
 30
0.0
 10
159.353182
 20
157.868988
 30
0.0
  0
LWPOLYLINE
  5
11c
100
AcDbEntity
  8
0
 62
7
100
AcDbPolyline
 90
2
 70
0
 10
154.269491
 20
168.912510
 30
0.0
 10
158.071470
 20
158.466662
 30
0.0
  0
LWPOLYLINE
  5
11d
100
AcDbEntity
  8
0
 62
7
100
AcDbPolyline
 90
2
 70
0
 10
104.210172
 20
169.603390
 30
0.0
 10
153.282814
 20
169.603390
 30
0.0
  0
SPLINE
  5
11e
100
AcDbEntity
  8
noname
 62
7
100
AcDbSpline
 70
8
 71
3
 72
8
 73
4
 74
0
 40
0
 40
0
 40
0
 40
0
 40
1
 40
1
 40
1
 40
1
 10
104.916904
 20
165.047460
 30
0.0
 10
103.252324
 20
164.984671
 30
0.0
 10
101.668306
 20
164.389264
 30
0.0
 10
100.542460
 20
163.354127
 30
0.0
  0
SPLINE
  5
11f
100
AcDbEntity
  8
noname
 62
7
100
AcDbSpline
 70
8
 71
3
 72
8
 73
4
 74
0
 40
0
 40
0
 40
0
 40
0
 40
1
 40
1
 40
1
 40
1
 10
100.542460
 20
163.354127
 30
0.0
 10
99.253057
 20
162.168441
 30
0.0
 10
97.985174
 20
161.162671
 30
0.0
 10
96.723640
 20
160.443710
 30
0.0
  0
SPLINE
  5
120
100
AcDbEntity
  8
noname
 62
7
100
AcDbSpline
 70
8
 71
3
 72
8
 73
4
 74
0
 40
0
 40
0
 40
0
 40
0
 40
1
 40
1
 40
1
 40
1
 10
96.723640
 20
160.443710
 30
0.0
 10
94.587571
 20
163.829671
 30
0.0
 10
90.036737
 20
165.664116
 30
0.0
 10
86.563640
 20
162.489821
 30
0.0
  0
SPLINE
  5
121
100
AcDbEntity
  8
noname
 62
7
100
AcDbSpline
 70
8
 71
3
 72
8
 73
4
 74
0
 40
0
 40
0
 40
0
 40
0
 40
1
 40
1
 40
1
 40
1
 10
86.563640
 20
162.489821
 30
0.0
 10
86.527657
 20
162.526863
 30
0.0
 10
86.493790
 20
162.566374
 30
0.0
 10
86.457807
 20
162.604474
 30
0.0
  0
SPLINE
  5
122
100
AcDbEntity
  8
noname
 62
7
100
AcDbSpline
 70
8
 71
3
 72
8
 73
4
 74
0
 40
0
 40
0
 40
0
 40
0
 40
1
 40
1
 40
1
 40
1
 10
86.457807
 20
162.604474
 30
0.0
 10
83.656751
 20
165.593913
 30
0.0
 10
80.484221
 20
164.088610
 30
0.0
 10
78.502668
 20
163.680446
 30
0.0
  0
SPLINE
  5
123
100
AcDbEntity
  8
noname
 62
7
100
AcDbSpline
 70
8
 71
3
 72
8
 73
4
 74
0
 40
0
 40
0
 40
0
 40
0
 40
1
 40
1
 40
1
 40
1
 10
78.502668
 20
163.680446
 30
0.0
 10
78.344976
 20
164.174335
 30
0.0
 10
76.853785
 20
164.577560
 30
0.0
 10
76.324265
 20
164.394821
 30
0.0
  0
SPLINE
  5
124
100
AcDbEntity
  8
noname
 62
7
100
AcDbSpline
 70
8
 71
3
 72
8
 73
4
 74
0
 40
0
 40
0
 40
0
 40
0
 40
1
 40
1
 40
1
 40
1
 10
76.324265
 20
164.394821
 30
0.0
 10
75.093071
 20
163.970782
 30
0.0
 10
75.443026
 20
162.523335
 30
0.0
 10
76.271349
 20
162.198779
 30
0.0
  0
SPLINE
  5
125
100
AcDbEntity
  8
noname
 62
7
100
AcDbSpline
 70
8
 71
3
 72
8
 73
4
 74
0
 40
0
 40
0
 40
0
 40
0
 40
1
 40
1
 40
1
 40
1
 10
76.271349
 20
162.198779
 30
0.0
 10
76.934924
 20
161.939135
 30
0.0
 10
78.107910
 20
162.533918
 30
0.0
 10
78.564404
 20
163.345307
 30
0.0
  0
SPLINE
  5
126
100
AcDbEntity
  8
noname
 62
7
100
AcDbSpline
 70
8
 71
3
 72
8
 73
4
 74
0
 40
0
 40
0
 40
0
 40
0
 40
1
 40
1
 40
1
 40
1
 10
78.564404
 20
163.345307
 30
0.0
 10
80.328293
 20
163.597543
 30
0.0
 10
82.175085
 20
164.598727
 30
0.0
 10
84.323501
 20
163.574613
 30
0.0
  0
SPLINE
  5
127
100
AcDbEntity
  8
noname
 62
7
100
AcDbSpline
 70
8
 71
3
 72
8
 73
4
 74
0
 40
0
 40
0
 40
0
 40
0
 40
1
 40
1
 40
1
 40
1
 10
84.323501
 20
163.574613
 30
0.0
 10
85.036112
 20
163.234535
 30
0.0
 10
85.671818
 20
162.773454
 30
0.0
 10
86.254960
 20
162.269335
 30
0.0
  0
SPLINE
  5
128
100
AcDbEntity
  8
noname
 62
7
100
AcDbSpline
 70
8
 71
3
 72
8
 73
4
 74
0
 40
0
 40
0
 40
0
 40
0
 40
1
 40
1
 40
1
 40
1
 10
86.254960
 20
162.269335
 30
0.0
 10
82.067487
 20
158.000724
 30
0.0
 10
80.406962
 20
157.768596
 30
0.0
 10
74.445724
 20
159.094335
 30
0.0
  0
SPLINE
  5
129
100
AcDbEntity
  8
noname
 62
7
100
AcDbSpline
 70
8
 71
3
 72
8
 73
4
 74
0
 40
0
 40
0
 40
0
 40
0
 40
1
 40
1
 40
1
 40
1
 10
74.445724
 20
159.094335
 30
0.0
 10
73.967710
 20
160.049657
 30
0.0
 10
72.659257
 20
160.822593
 30
0.0
 10
71.896904
 20
160.584821
 30
0.0
  0
SPLINE
  5
12a
100
AcDbEntity
  8
noname
 62
7
100
AcDbSpline
 70
8
 71
3
 72
8
 73
4
 74
0
 40
0
 40
0
 40
0
 40
0
 40
1
 40
1
 40
1
 40
1
 10
71.896904
 20
160.584821
 30
0.0
 10
70.945462
 20
160.287782
 30
0.0
 10
70.489674
 20
158.680879
 30
0.0
 10
71.861626
 20
158.097738
 30
0.0
  0
SPLINE
  5
12b
100
AcDbEntity
  8
noname
 62
7
100
AcDbSpline
 70
8
 71
3
 72
8
 73
4
 74
0
 40
0
 40
0
 40
0
 40
0
 40
1
 40
1
 40
1
 40
1
 10
71.861626
 20
158.097738
 30
0.0
 10
72.452176
 20
157.846913
 30
0.0
 10
74.155740
 20
158.170057
 30
0.0
 10
74.357529
 20
158.715099
 30
0.0
  0
SPLINE
  5
12c
100
AcDbEntity
  8
noname
 62
7
100
AcDbSpline
 70
8
 71
3
 72
8
 73
4
 74
0
 40
0
 40
0
 40
0
 40
0
 40
1
 40
1
 40
1
 40
1
 10
74.357529
 20
158.715099
 30
0.0
 10
83.332549
 20
156.178274
 30
0.0
 10
83.739301
 20
159.213221
 30
0.0
 10
86.828224
 20
161.748988
 30
0.0
  0
SPLINE
  5
12d
100
AcDbEntity
  8
noname
 62
7
100
AcDbSpline
 70
8
 71
3
 72
8
 73
4
 74
0
 40
0
 40
0
 40
0
 40
0
 40
1
 40
1
 40
1
 40
1
 10
86.828224
 20
161.748988
 30
0.0
 10
90.105882
 20
158.636077
 30
0.0
 10
92.600021
 20
156.969202
 30
0.0
 10
96.732460
 20
159.641141
 30
0.0
  0
SPLINE
  5
12e
100
AcDbEntity
  8
noname
 62
7
100
AcDbSpline
 70
8
 71
3
 72
8
 73
4
 74
0
 40
0
 40
0
 40
0
 40
0
 40
1
 40
1
 40
1
 40
1
 10
96.732460
 20
159.641141
 30
0.0
 10
97.077476
 20
159.354685
 30
0.0
 10
97.427432
 20
159.052002
 30
0.0
 10
97.773154
 20
158.732738
 30
0.0
  0
SPLINE
  5
12f
100
AcDbEntity
  8
noname
 62
7
100
AcDbSpline
 70
8
 71
3
 72
8
 73
4
 74
0
 40
0
 40
0
 40
0
 40
0
 40
1
 40
1
 40
1
 40
1
 10
97.773154
 20
158.732738
 30
0.0
 10
97.066893
 20
157.964035
 30
0.0
 10
96.303482
 20
156.900410
 30
0.0
 10
95.233154
 20
156.272113
 30
0.0
  0
SPLINE
  5
130
100
AcDbEntity
  8
noname
 62
7
100
AcDbSpline
 70
8
 71
3
 72
8
 73
4
 74
0
 40
0
 40
0
 40
0
 40
0
 40
1
 40
1
 40
1
 40
1
 10
95.233154
 20
156.272113
 30
0.0
 10
93.904240
 20
155.492121
 30
0.0
 10
92.700915
 20
156.015291
 30
0.0
 10
91.573085
 20
156.069266
 30
0.0
  0
SPLINE
  5
131
100
AcDbEntity
  8
noname
 62
7
100
AcDbSpline
 70
8
 71
3
 72
8
 73
4
 74
0
 40
0
 40
0
 40
0
 40
0
 40
1
 40
1
 40
1
 40
1
 10
91.573085
 20
156.069266
 30
0.0
 10
91.255585
 20
156.556452
 30
0.0
 10
90.485824
 20
156.865132
 30
0.0
 10
90.073779
 20
156.660168
 30
0.0
  0
SPLINE
  5
132
100
AcDbEntity
  8
noname
 62
7
100
AcDbSpline
 70
8
 71
3
 72
8
 73
4
 74
0
 40
0
 40
0
 40
0
 40
0
 40
1
 40
1
 40
1
 40
1
 10
90.073779
 20
156.660168
 30
0.0
 10
89.558724
 20
156.404404
 30
0.0
 10
89.392918
 20
155.461429
 30
0.0
 10
90.188432
 20
155.266696
 30
0.0
  0
SPLINE
  5
133
100
AcDbEntity
  8
noname
 62
7
100
AcDbSpline
 70
8
 71
3
 72
8
 73
4
 74
0
 40
0
 40
0
 40
0
 40
0
 40
1
 40
1
 40
1
 40
1
 10
90.188432
 20
155.266696
 30
0.0
 10
90.530979
 20
155.182735
 30
0.0
 10
91.463371
 20
155.525988
 30
0.0
 10
91.546626
 20
155.848779
 30
0.0
  0
SPLINE
  5
134
100
AcDbEntity
  8
noname
 62
7
100
AcDbSpline
 70
8
 71
3
 72
8
 73
4
 74
0
 40
0
 40
0
 40
0
 40
0
 40
1
 40
1
 40
1
 40
1
 10
91.546626
 20
155.848779
 30
0.0
 10
92.818390
 20
155.709432
 30
0.0
 10
94.878612
 20
154.955193
 30
0.0
 10
96.556071
 20
157.021766
 30
0.0
  0
SPLINE
  5
135
100
AcDbEntity
  8
noname
 62
7
100
AcDbSpline
 70
8
 71
3
 72
8
 73
4
 74
0
 40
0
 40
0
 40
0
 40
0
 40
1
 40
1
 40
1
 40
1
 10
96.556071
 20
157.021766
 30
0.0
 10
97.052429
 20
157.633482
 30
0.0
 10
97.544201
 20
158.117846
 30
0.0
 10
98.028918
 20
158.494613
 30
0.0
  0
SPLINE
  5
136
100
AcDbEntity
  8
noname
 62
7
100
AcDbSpline
 70
8
 71
3
 72
8
 73
4
 74
0
 40
0
 40
0
 40
0
 40
0
 40
1
 40
1
 40
1
 40
1
 10
98.028918
 20
158.494613
 30
0.0
 10
98.449076
 20
158.098091
 30
0.0
 10
98.866765
 20
157.679343
 30
0.0
 10
99.290099
 20
157.242252
 30
0.0
  0
SPLINE
  5
137
100
AcDbEntity
  8
noname
 62
7
100
AcDbSpline
 70
8
 71
3
 72
8
 73
4
 74
0
 40
0
 40
0
 40
0
 40
0
 40
1
 40
1
 40
1
 40
1
 10
99.290099
 20
157.242252
 30
0.0
 10
101.805037
 20
154.643394
 30
0.0
 10
105.954062
 20
154.845598
 30
0.0
 10
109.211974
 20
156.748363
 30
0.0
  0
SPLINE
  5
138
100
AcDbEntity
  8
noname
 62
7
100
AcDbSpline
 70
8
 71
3
 72
8
 73
4
 74
0
 40
0
 40
0
 40
0
 40
0
 40
1
 40
1
 40
1
 40
1
 10
109.211974
 20
156.748363
 30
0.0
 10
112.469205
 20
154.848067
 30
0.0
 10
116.611262
 20
154.644605
 30
0.0
 10
119.125029
 20
157.242252
 30
0.0
  0
SPLINE
  5
139
100
AcDbEntity
  8
noname
 62
7
100
AcDbSpline
 70
8
 71
3
 72
8
 73
4
 74
0
 40
0
 40
0
 40
0
 40
0
 40
1
 40
1
 40
1
 40
1
 10
119.125029
 20
157.242252
 30
0.0
 10
119.548362
 20
157.679343
 30
0.0
 10
119.974871
 20
158.098091
 30
0.0
 10
120.395029
 20
158.494613
 30
0.0
  0
SPLINE
  5
13a
100
AcDbEntity
  8
noname
 62
7
100
AcDbSpline
 70
8
 71
3
 72
8
 73
4
 74
0
 40
0
 40
0
 40
0
 40
0
 40
1
 40
1
 40
1
 40
1
 10
120.395029
 20
158.494613
 30
0.0
 10
120.879746
 20
158.117846
 30
0.0
 10
121.362699
 20
157.633482
 30
0.0
 10
121.859057
 20
157.021766
 30
0.0
  0
SPLINE
  5
13b
100
AcDbEntity
  8
noname
 62
7
100
AcDbSpline
 70
8
 71
3
 72
8
 73
4
 74
0
 40
0
 40
0
 40
0
 40
0
 40
1
 40
1
 40
1
 40
1
 10
121.859057
 20
157.021766
 30
0.0
 10
123.536515
 20
154.955193
 30
0.0
 10
125.605910
 20
155.709432
 30
0.0
 10
126.877321
 20
155.848779
 30
0.0
  0
SPLINE
  5
13c
100
AcDbEntity
  8
noname
 62
7
100
AcDbSpline
 70
8
 71
3
 72
8
 73
4
 74
0
 40
0
 40
0
 40
0
 40
0
 40
1
 40
1
 40
1
 40
1
 10
126.877321
 20
155.848779
 30
0.0
 10
126.960929
 20
155.525988
 30
0.0
 10
127.892968
 20
155.182735
 30
0.0
 10
128.235515
 20
155.266696
 30
0.0
  0
SPLINE
  5
13d
100
AcDbEntity
  8
noname
 62
7
100
AcDbSpline
 70
8
 71
3
 72
8
 73
4
 74
0
 40
0
 40
0
 40
0
 40
0
 40
1
 40
1
 40
1
 40
1
 10
128.235515
 20
155.266696
 30
0.0
 10
129.031029
 20
155.461429
 30
0.0
 10
128.856404
 20
156.404404
 30
0.0
 10
128.341349
 20
156.660168
 30
0.0
  0
SPLINE
  5
13e
100
AcDbEntity
  8
noname
 62
7
100
AcDbSpline
 70
8
 71
3
 72
8
 73
4
 74
0
 40
0
 40
0
 40
0
 40
0
 40
1
 40
1
 40
1
 40
1
 10
128.341349
 20
156.660168
 30
0.0
 10
127.929304
 20
156.865132
 30
0.0
 10
127.159190
 20
156.556452
 30
0.0
 10
126.842043
 20
156.069266
 30
0.0
  0
SPLINE
  5
13f
100
AcDbEntity
  8
noname
 62
7
100
AcDbSpline
 70
8
 71
3
 72
8
 73
4
 74
0
 40
0
 40
0
 40
0
 40
0
 40
1
 40
1
 40
1
 40
1
 10
126.842043
 20
156.069266
 30
0.0
 10
125.713860
 20
156.015291
 30
0.0
 10
124.511240
 20
155.492121
 30
0.0
 10
123.181974
 20
156.272113
 30
0.0
  0
SPLINE
  5
140
100
AcDbEntity
  8
noname
 62
7
100
AcDbSpline
 70
8
 71
3
 72
8
 73
4
 74
0
 40
0
 40
0
 40
0
 40
0
 40
1
 40
1
 40
1
 40
1
 10
123.181974
 20
156.272113
 30
0.0
 10
122.111999
 20
156.900410
 30
0.0
 10
121.357407
 20
157.964035
 30
0.0
 10
120.650793
 20
158.732738
 30
0.0
  0
SPLINE
  5
141
100
AcDbEntity
  8
noname
 62
7
100
AcDbSpline
 70
8
 71
3
 72
8
 73
4
 74
0
 40
0
 40
0
 40
0
 40
0
 40
1
 40
1
 40
1
 40
1
 10
120.650793
 20
158.732738
 30
0.0
 10
120.996868
 20
159.052002
 30
0.0
 10
121.337651
 20
159.354685
 30
0.0
 10
121.682668
 20
159.641141
 30
0.0
  0
SPLINE
  5
142
100
AcDbEntity
  8
noname
 62
7
100
AcDbSpline
 70
8
 71
3
 72
8
 73
4
 74
0
 40
0
 40
0
 40
0
 40
0
 40
1
 40
1
 40
1
 40
1
 10
121.682668
 20
159.641141
 30
0.0
 10
125.815107
 20
156.969202
 30
0.0
 10
128.309246
 20
158.636077
 30
0.0
 10
131.586904
 20
161.748988
 30
0.0
  0
SPLINE
  5
143
100
AcDbEntity
  8
noname
 62
7
100
AcDbSpline
 70
8
 71
3
 72
8
 73
4
 74
0
 40
0
 40
0
 40
0
 40
0
 40
1
 40
1
 40
1
 40
1
 10
131.586904
 20
161.748988
 30
0.0
 10
134.675826
 20
159.213221
 30
0.0
 10
135.091399
 20
156.178274
 30
0.0
 10
144.066418
 20
158.715099
 30
0.0
  0
SPLINE
  5
144
100
AcDbEntity
  8
noname
 62
7
100
AcDbSpline
 70
8
 71
3
 72
8
 73
4
 74
0
 40
0
 40
0
 40
0
 40
0
 40
1
 40
1
 40
1
 40
1
 10
144.066418
 20
158.715099
 30
0.0
 10
144.267854
 20
158.170057
 30
0.0
 10
145.972124
 20
157.846913
 30
0.0
 10
146.562321
 20
158.097738
 30
0.0
  0
SPLINE
  5
145
100
AcDbEntity
  8
noname
 62
7
100
AcDbSpline
 70
8
 71
3
 72
8
 73
4
 74
0
 40
0
 40
0
 40
0
 40
0
 40
1
 40
1
 40
1
 40
1
 10
146.562321
 20
158.097738
 30
0.0
 10
147.934274
 20
158.680879
 30
0.0
 10
147.470018
 20
160.287782
 30
0.0
 10
146.518224
 20
160.584821
 30
0.0
  0
SPLINE
  5
146
100
AcDbEntity
  8
noname
 62
7
100
AcDbSpline
 70
8
 71
3
 72
8
 73
4
 74
0
 40
0
 40
0
 40
0
 40
0
 40
1
 40
1
 40
1
 40
1
 10
146.518224
 20
160.584821
 30
0.0
 10
145.755871
 20
160.822593
 30
0.0
 10
144.456237
 20
160.049657
 30
0.0
 10
143.978224
 20
159.094335
 30
0.0
  0
SPLINE
  5
147
100
AcDbEntity
  8
noname
 62
7
100
AcDbSpline
 70
8
 71
3
 72
8
 73
4
 74
0
 40
0
 40
0
 40
0
 40
0
 40
1
 40
1
 40
1
 40
1
 10
143.978224
 20
159.094335
 30
0.0
 10
138.016985
 20
157.768596
 30
0.0
 10
136.347640
 20
158.000724
 30
0.0
 10
132.160168
 20
162.269335
 30
0.0
  0
SPLINE
  5
148
100
AcDbEntity
  8
noname
 62
7
100
AcDbSpline
 70
8
 71
3
 72
8
 73
4
 74
0
 40
0
 40
0
 40
0
 40
0
 40
1
 40
1
 40
1
 40
1
 10
132.160168
 20
162.269335
 30
0.0
 10
132.743310
 20
162.773454
 30
0.0
 10
133.379015
 20
163.234535
 30
0.0
 10
134.091626
 20
163.574613
 30
0.0
  0
SPLINE
  5
149
100
AcDbEntity
  8
noname
 62
7
100
AcDbSpline
 70
8
 71
3
 72
8
 73
4
 74
0
 40
0
 40
0
 40
0
 40
0
 40
1
 40
1
 40
1
 40
1
 10
134.091626
 20
163.574613
 30
0.0
 10
136.240043
 20
164.598727
 30
0.0
 10
138.086835
 20
163.597557
 30
0.0
 10
139.850724
 20
163.345307
 30
0.0
  0
SPLINE
  5
14a
100
AcDbEntity
  8
noname
 62
7
100
AcDbSpline
 70
8
 71
3
 72
8
 73
4
 74
0
 40
0
 40
0
 40
0
 40
0
 40
1
 40
1
 40
1
 40
1
 10
139.850724
 20
163.345307
 30
0.0
 10
140.307218
 20
162.533918
 30
0.0
 10
141.489024
 20
161.939135
 30
0.0
 10
142.152599
 20
162.198779
 30
0.0
  0
SPLINE
  5
14b
100
AcDbEntity
  8
noname
 62
7
100
AcDbSpline
 70
8
 71
3
 72
8
 73
4
 74
0
 40
0
 40
0
 40
0
 40
0
 40
1
 40
1
 40
1
 40
1
 10
142.152599
 20
162.198779
 30
0.0
 10
142.980921
 20
162.523335
 30
0.0
 10
143.321704
 20
163.970782
 30
0.0
 10
142.090862
 20
164.394821
 30
0.0
  0
SPLINE
  5
14c
100
AcDbEntity
  8
noname
 62
7
100
AcDbSpline
 70
8
 71
3
 72
8
 73
4
 74
0
 40
0
 40
0
 40
0
 40
0
 40
1
 40
1
 40
1
 40
1
 10
142.090862
 20
164.394821
 30
0.0
 10
141.561343
 20
164.577560
 30
0.0
 10
140.069799
 20
164.174335
 30
0.0
 10
139.912460
 20
163.680446
 30
0.0
  0
SPLINE
  5
14d
100
AcDbEntity
  8
noname
 62
7
100
AcDbSpline
 70
8
 71
3
 72
8
 73
4
 74
0
 40
0
 40
0
 40
0
 40
0
 40
1
 40
1
 40
1
 40
1
 10
139.912460
 20
163.680446
 30
0.0
 10
137.930907
 20
164.088610
 30
0.0
 10
134.767196
 20
165.593913
 30
0.0
 10
131.966140
 20
162.604474
 30
0.0
  0
SPLINE
  5
14e
100
AcDbEntity
  8
noname
 62
7
100
AcDbSpline
 70
8
 71
3
 72
8
 73
4
 74
0
 40
0
 40
0
 40
0
 40
0
 40
1
 40
1
 40
1
 40
1
 10
131.966140
 20
162.604474
 30
0.0
 10
131.930157
 20
162.566374
 30
0.0
 10
131.895585
 20
162.526863
 30
0.0
 10
131.860307
 20
162.489821
 30
0.0
  0
SPLINE
  5
14f
100
AcDbEntity
  8
noname
 62
7
100
AcDbSpline
 70
8
 71
3
 72
8
 73
4
 74
0
 40
0
 40
0
 40
0
 40
0
 40
1
 40
1
 40
1
 40
1
 10
131.860307
 20
162.489821
 30
0.0
 10
128.386857
 20
165.664116
 30
0.0
 10
123.827204
 20
163.829671
 30
0.0
 10
121.691487
 20
160.443710
 30
0.0
  0
SPLINE
  5
150
100
AcDbEntity
  8
noname
 62
7
100
AcDbSpline
 70
8
 71
3
 72
8
 73
4
 74
0
 40
0
 40
0
 40
0
 40
0
 40
1
 40
1
 40
1
 40
1
 10
121.691487
 20
160.443710
 30
0.0
 10
120.429601
 20
161.162671
 30
0.0
 10
119.162424
 20
162.168441
 30
0.0
 10
117.872668
 20
163.354127
 30
0.0
  0
SPLINE
  5
151
100
AcDbEntity
  8
noname
 62
7
100
AcDbSpline
 70
8
 71
3
 72
8
 73
4
 74
0
 40
0
 40
0
 40
0
 40
0
 40
1
 40
1
 40
1
 40
1
 10
117.872668
 20
163.354127
 30
0.0
 10
116.235074
 20
164.859782
 30
0.0
 10
113.629457
 20
165.435516
 30
0.0
 10
111.213987
 20
164.791696
 30
0.0
  0
SPLINE
  5
152
100
AcDbEntity
  8
noname
 62
7
100
AcDbSpline
 70
8
 71
3
 72
8
 73
4
 74
0
 40
0
 40
0
 40
0
 40
0
 40
1
 40
1
 40
1
 40
1
 10
111.213987
 20
164.791696
 30
0.0
 10
110.594329
 20
164.626435
 30
0.0
 10
109.901490
 20
164.256507
 30
0.0
 10
109.211974
 20
163.803918
 30
0.0
  0
SPLINE
  5
153
100
AcDbEntity
  8
noname
 62
7
100
AcDbSpline
 70
8
 71
3
 72
8
 73
4
 74
0
 40
0
 40
0
 40
0
 40
0
 40
1
 40
1
 40
1
 40
1
 10
109.211974
 20
163.803918
 30
0.0
 10
108.521195
 20
164.257675
 30
0.0
 10
107.821956
 20
164.626125
 30
0.0
 10
107.201140
 20
164.791696
 30
0.0
  0
SPLINE
  5
154
100
AcDbEntity
  8
noname
 62
7
100
AcDbSpline
 70
8
 71
3
 72
8
 73
4
 74
0
 40
0
 40
0
 40
0
 40
0
 40
1
 40
1
 40
1
 40
1
 10
107.201140
 20
164.791696
 30
0.0
 10
106.446306
 20
164.992890
 30
0.0
 10
105.673531
 20
165.076001
 30
0.0
 10
104.916904
 20
165.047460
 30
0.0
  0
LWPOLYLINE
  5
155
100
AcDbEntity
  8
0
 62
7
100
AcDbPolyline
 90
2
 70
0
 10
41.210171
 20
150.703389
 30
0.0
 10
176.160170
 20
150.703389
 30
0.0
  0
SPLINE
  5
156
100
AcDbEntity
  8
noname
 62
7
100
AcDbSpline
 70
8
 71
3
 72
8
 73
4
 74
0
 40
0
 40
0
 40
0
 40
0
 40
1
 40
1
 40
1
 40
1
 10
104.608224
 20
164.121418
 30
0.0
 10
105.947091
 20
164.166932
 30
0.0
 10
107.223137
 20
163.858836
 30
0.0
 10
108.462321
 20
163.283571
 30
0.0
  0
SPLINE
  5
157
100
AcDbEntity
  8
noname
 62
7
100
AcDbSpline
 70
8
 71
3
 72
8
 73
4
 74
0
 40
0
 40
0
 40
0
 40
0
 40
1
 40
1
 40
1
 40
1
 10
108.462321
 20
163.283571
 30
0.0
 10
106.920510
 20
162.136383
 30
0.0
 10
105.578221
 20
160.749402
 30
0.0
 10
105.437251
 20
160.496627
 30
0.0
  0
SPLINE
  5
158
100
AcDbEntity
  8
noname
 62
7
100
AcDbSpline
 70
8
 71
3
 72
8
 73
4
 74
0
 40
0
 40
0
 40
0
 40
0
 40
1
 40
1
 40
1
 40
1
 10
105.437251
 20
160.496627
 30
0.0
 10
106.117856
 20
159.283751
 30
0.0
 10
107.087726
 20
158.234037
 30
0.0
 10
108.215376
 20
157.401002
 30
0.0
  0
SPLINE
  5
159
100
AcDbEntity
  8
noname
 62
7
100
AcDbSpline
 70
8
 71
3
 72
8
 73
4
 74
0
 40
0
 40
0
 40
0
 40
0
 40
1
 40
1
 40
1
 40
1
 10
108.215376
 20
157.401002
 30
0.0
 10
108.069809
 20
157.312311
 30
0.0
 10
107.929355
 20
157.219217
 30
0.0
 10
107.783224
 20
157.136418
 30
0.0
  0
LWPOLYLINE
  5
15a
100
AcDbEntity
  8
noname
 62
7
100
AcDbPolyline
 90
2
 70
0
 10
104.916904
 20
165.047460
 30
0.0
 10
104.916904
 20
165.047460
 30
0.0
  0
SPLINE
  5
15b
100
AcDbEntity
  8
noname
 62
7
100
AcDbSpline
 70
8
 71
3
 72
8
 73
4
 74
0
 40
0
 40
0
 40
0
 40
0
 40
1
 40
1
 40
1
 40
1
 10
107.765585
 20
157.136418
 30
0.0
 10
104.432893
 20
157.187218
 30
0.0
 10
103.140315
 20
161.554960
 30
0.0
 10
98.760932
 20
159.544127
 30
0.0
  0
SPLINE
  5
15c
100
AcDbEntity
  8
noname
 62
7
100
AcDbSpline
 70
8
 71
3
 72
8
 73
4
 74
0
 40
0
 40
0
 40
0
 40
0
 40
1
 40
1
 40
1
 40
1
 10
98.760932
 20
159.544127
 30
0.0
 10
98.551029
 20
159.447466
 30
0.0
 10
98.347829
 20
159.299652
 30
0.0
 10
98.143571
 20
159.111974
 30
0.0
  0
SPLINE
  5
15d
100
AcDbEntity
  8
noname
 62
7
100
AcDbSpline
 70
8
 71
3
 72
8
 73
4
 74
0
 40
0
 40
0
 40
0
 40
0
 40
1
 40
1
 40
1
 40
1
 10
98.143571
 20
159.111974
 30
0.0
 10
97.835596
 20
159.397724
 30
0.0
 10
97.533265
 20
159.687354
 30
0.0
 10
97.226349
 20
159.976279
 30
0.0
  0
SPLINE
  5
15e
100
AcDbEntity
  8
noname
 62
7
100
AcDbSpline
 70
8
 71
3
 72
8
 73
4
 74
0
 40
0
 40
0
 40
0
 40
0
 40
1
 40
1
 40
1
 40
1
 10
97.226349
 20
159.976279
 30
0.0
 10
99.400518
 20
161.537674
 30
0.0
 10
101.181693
 20
163.771816
 30
0.0
 10
104.026140
 20
164.086141
 30
0.0
  0
SPLINE
  5
15f
100
AcDbEntity
  8
noname
 62
7
100
AcDbSpline
 70
8
 71
3
 72
8
 73
4
 74
0
 40
0
 40
0
 40
0
 40
0
 40
1
 40
1
 40
1
 40
1
 10
104.026140
 20
164.086141
 30
0.0
 10
104.221644
 20
164.107731
 30
0.0
 10
104.415649
 20
164.114871
 30
0.0
 10
104.608224
 20
164.121418
 30
0.0
  0
LWPOLYLINE
  5
160
100
AcDbEntity
  8
noname
 62
7
100
AcDbPolyline
 90
2
 70
0
 10
107.783224
 20
157.136418
 30
0.0
 10
107.765585
 20
157.136418
 30
0.0
  0
SPLINE
  5
161
100
AcDbEntity
  8
noname
 62
7
100
AcDbSpline
 70
8
 71
3
 72
8
 73
4
 74
0
 40
0
 40
0
 40
0
 40
0
 40
1
 40
1
 40
1
 40
1
 10
113.233640
 20
164.121418
 30
0.0
 10
113.613356
 20
164.137307
 30
0.0
 10
113.997977
 20
164.129321
 30
0.0
 10
114.388987
 20
164.086141
 30
0.0
  0
SPLINE
  5
162
100
AcDbEntity
  8
noname
 62
7
100
AcDbSpline
 70
8
 71
3
 72
8
 73
4
 74
0
 40
0
 40
0
 40
0
 40
0
 40
1
 40
1
 40
1
 40
1
 10
114.388987
 20
164.086141
 30
0.0
 10
117.233435
 20
163.771816
 30
0.0
 10
119.014610
 20
161.537674
 30
0.0
 10
121.188779
 20
159.976279
 30
0.0
  0
SPLINE
  5
163
100
AcDbEntity
  8
noname
 62
7
100
AcDbSpline
 70
8
 71
3
 72
8
 73
4
 74
0
 40
0
 40
0
 40
0
 40
0
 40
1
 40
1
 40
1
 40
1
 10
121.188779
 20
159.976279
 30
0.0
 10
120.881862
 20
159.687354
 30
0.0
 10
120.579532
 20
159.397724
 30
0.0
 10
120.271557
 20
159.111974
 30
0.0
  0
SPLINE
  5
164
100
AcDbEntity
  8
noname
 62
7
100
AcDbSpline
 70
8
 71
3
 72
8
 73
4
 74
0
 40
0
 40
0
 40
0
 40
0
 40
1
 40
1
 40
1
 40
1
 10
120.271557
 20
159.111974
 30
0.0
 10
120.067299
 20
159.299652
 30
0.0
 10
119.864099
 20
159.447466
 30
0.0
 10
119.654196
 20
159.544127
 30
0.0
  0
SPLINE
  5
165
100
AcDbEntity
  8
noname
 62
7
100
AcDbSpline
 70
8
 71
3
 72
8
 73
4
 74
0
 40
0
 40
0
 40
0
 40
0
 40
1
 40
1
 40
1
 40
1
 10
119.654196
 20
159.544127
 30
0.0
 10
115.274812
 20
161.554960
 30
0.0
 10
113.991054
 20
157.187218
 30
0.0
 10
110.658362
 20
157.136418
 30
0.0
  0
LWPOLYLINE
  5
166
100
AcDbEntity
  8
noname
 62
7
100
AcDbPolyline
 90
2
 70
0
 10
104.608224
 20
164.121418
 30
0.0
 10
104.608224
 20
164.121418
 30
0.0
  0
SPLINE
  5
167
100
AcDbEntity
  8
noname
 62
7
100
AcDbSpline
 70
8
 71
3
 72
8
 73
4
 74
0
 40
0
 40
0
 40
0
 40
0
 40
1
 40
1
 40
1
 40
1
 10
110.631918
 20
157.136418
 30
0.0
 10
110.487099
 20
157.218472
 30
0.0
 10
110.344026
 20
157.304335
 30
0.0
 10
110.199765
 20
157.392182
 30
0.0
  0
SPLINE
  5
168
100
AcDbEntity
  8
noname
 62
7
100
AcDbSpline
 70
8
 71
3
 72
8
 73
4
 74
0
 40
0
 40
0
 40
0
 40
0
 40
1
 40
1
 40
1
 40
1
 10
110.199765
 20
157.392182
 30
0.0
 10
111.331516
 20
158.226344
 30
0.0
 10
112.304260
 20
159.280300
 30
0.0
 10
112.986710
 20
160.496627
 30
0.0
  0
SPLINE
  5
169
100
AcDbEntity
  8
noname
 62
7
100
AcDbSpline
 70
8
 71
3
 72
8
 73
4
 74
0
 40
0
 40
0
 40
0
 40
0
 40
1
 40
1
 40
1
 40
1
 10
112.986710
 20
160.496627
 30
0.0
 10
112.845740
 20
160.749402
 30
0.0
 10
111.503452
 20
162.136383
 30
0.0
 10
109.961640
 20
163.283571
 30
0.0
  0
SPLINE
  5
16a
100
AcDbEntity
  8
noname
 62
7
100
AcDbSpline
 70
8
 71
3
 72
8
 73
4
 74
0
 40
0
 40
0
 40
0
 40
0
 40
1
 40
1
 40
1
 40
1
 10
109.961640
 20
163.283571
 30
0.0
 10
111.022553
 20
163.776094
 30
0.0
 10
112.103535
 20
164.074152
 30
0.0
 10
113.233654
 20
164.121418
 30
0.0
  0
LWPOLYLINE
  5
16b
100
AcDbEntity
  8
noname
 62
7
100
AcDbPolyline
 90
2
 70
0
 10
110.658362
 20
157.136418
 30
0.0
 10
110.631918
 20
157.136418
 30
0.0
  0
SPLINE
  5
16c
100
AcDbEntity
  8
noname
 62
7
100
AcDbSpline
 70
8
 71
3
 72
8
 73
4
 74
0
 40
0
 40
0
 40
0
 40
0
 40
1
 40
1
 40
1
 40
1
 10
90.735237
 20
163.592252
 30
0.0
 10
93.034245
 20
163.559641
 30
0.0
 10
94.936293
 20
162.063488
 30
0.0
 10
96.132737
 20
160.126210
 30
0.0
  0
SPLINE
  5
16d
100
AcDbEntity
  8
noname
 62
7
100
AcDbSpline
 70
8
 71
3
 72
8
 73
4
 74
0
 40
0
 40
0
 40
0
 40
0
 40
1
 40
1
 40
1
 40
1
 10
96.132737
 20
160.126210
 30
0.0
 10
93.250896
 20
158.073396
 30
0.0
 10
90.037443
 20
158.815993
 30
0.0
 10
86.837043
 20
162.286974
 30
0.0
  0
SPLINE
  5
16e
100
AcDbEntity
  8
noname
 62
7
100
AcDbSpline
 70
8
 71
3
 72
8
 73
4
 74
0
 40
0
 40
0
 40
0
 40
0
 40
1
 40
1
 40
1
 40
1
 10
86.837043
 20
162.286974
 30
0.0
 10
88.214033
 20
163.222309
 30
0.0
 10
89.530995
 20
163.609335
 30
0.0
 10
90.735237
 20
163.592252
 30
0.0
  0
LWPOLYLINE
  5
16f
100
AcDbEntity
  8
noname
 62
7
100
AcDbPolyline
 90
2
 70
0
 10
113.233654
 20
164.121418
 30
0.0
 10
113.233640
 20
164.121418
 30
0.0
  0
SPLINE
  5
170
100
AcDbEntity
  8
noname
 62
7
100
AcDbSpline
 70
8
 71
3
 72
8
 73
4
 74
0
 40
0
 40
0
 40
0
 40
0
 40
1
 40
1
 40
1
 40
1
 10
127.688710
 20
163.592252
 30
0.0
 10
128.892952
 20
163.609326
 30
0.0
 10
130.201094
 20
163.222309
 30
0.0
 10
131.578085
 20
162.286974
 30
0.0
  0
SPLINE
  5
171
100
AcDbEntity
  8
noname
 62
7
100
AcDbSpline
 70
8
 71
3
 72
8
 73
4
 74
0
 40
0
 40
0
 40
0
 40
0
 40
1
 40
1
 40
1
 40
1
 10
131.578085
 20
162.286974
 30
0.0
 10
128.377332
 20
158.815993
 30
0.0
 10
125.164232
 20
158.073396
 30
0.0
 10
122.282390
 20
160.126210
 30
0.0
  0
SPLINE
  5
172
100
AcDbEntity
  8
noname
 62
7
100
AcDbSpline
 70
8
 71
3
 72
8
 73
4
 74
0
 40
0
 40
0
 40
0
 40
0
 40
1
 40
1
 40
1
 40
1
 10
122.282390
 20
160.126210
 30
0.0
 10
123.478835
 20
162.063488
 30
0.0
 10
125.389702
 20
163.559641
 30
0.0
 10
127.688710
 20
163.592252
 30
0.0
  0
LWPOLYLINE
  5
173
100
AcDbEntity
  8
noname
 62
7
100
AcDbPolyline
 90
2
 70
0
 10
90.735237
 20
163.592252
 30
0.0
 10
90.735237
 20
163.592252
 30
0.0
  0
SPLINE
  5
174
100
AcDbEntity
  8
noname
 62
7
100
AcDbSpline
 70
8
 71
3
 72
8
 73
4
 74
0
 40
0
 40
0
 40
0
 40
0
 40
1
 40
1
 40
1
 40
1
 10
109.211974
 20
162.895516
 30
0.0
 10
110.383630
 20
162.247838
 30
0.0
 10
111.535868
 20
161.377702
 30
0.0
 10
112.695654
 20
160.364335
 30
0.0
  0
SPLINE
  5
175
100
AcDbEntity
  8
noname
 62
7
100
AcDbSpline
 70
8
 71
3
 72
8
 73
4
 74
0
 40
0
 40
0
 40
0
 40
0
 40
1
 40
1
 40
1
 40
1
 10
112.695654
 20
160.364335
 30
0.0
 10
111.481289
 20
159.655602
 30
0.0
 10
110.344404
 20
158.801496
 30
0.0
 10
109.211974
 20
158.036002
 30
0.0
  0
SPLINE
  5
176
100
AcDbEntity
  8
noname
 62
7
100
AcDbSpline
 70
8
 71
3
 72
8
 73
4
 74
0
 40
0
 40
0
 40
0
 40
0
 40
1
 40
1
 40
1
 40
1
 10
109.211974
 20
158.036002
 30
0.0
 10
108.079543
 20
158.801496
 30
0.0
 10
106.942659
 20
159.655602
 30
0.0
 10
105.728293
 20
160.364335
 30
0.0
  0
SPLINE
  5
177
100
AcDbEntity
  8
noname
 62
7
100
AcDbSpline
 70
8
 71
3
 72
8
 73
4
 74
0
 40
0
 40
0
 40
0
 40
0
 40
1
 40
1
 40
1
 40
1
 10
105.728293
 20
160.364335
 30
0.0
 10
106.890462
 20
161.379658
 30
0.0
 10
108.037994
 20
162.247452
 30
0.0
 10
109.211974
 20
162.895516
 30
0.0
  0
LWPOLYLINE
  5
178
100
AcDbEntity
  8
noname
 62
7
100
AcDbPolyline
 90
2
 70
0
 10
127.688710
 20
163.592252
 30
0.0
 10
127.688710
 20
163.592252
 30
0.0
  0
SPLINE
  5
179
100
AcDbEntity
  8
noname
 62
7
100
AcDbSpline
 70
8
 71
3
 72
8
 73
4
 74
0
 40
0
 40
0
 40
0
 40
0
 40
1
 40
1
 40
1
 40
1
 10
100.657112
 20
159.535307
 30
0.0
 10
102.252148
 20
159.599660
 30
0.0
 10
103.845893
 20
158.711814
 30
0.0
 10
105.525446
 20
157.392182
 30
0.0
  0
SPLINE
  5
17a
100
AcDbEntity
  8
noname
 62
7
100
AcDbSpline
 70
8
 71
3
 72
8
 73
4
 74
0
 40
0
 40
0
 40
0
 40
0
 40
1
 40
1
 40
1
 40
1
 10
105.525446
 20
157.392182
 30
0.0
 10
105.964654
 20
157.046813
 30
0.0
 10
106.467362
 20
156.825621
 30
0.0
 10
107.007112
 20
156.730724
 30
0.0
  0
SPLINE
  5
17b
100
AcDbEntity
  8
noname
 62
7
100
AcDbSpline
 70
8
 71
3
 72
8
 73
4
 74
0
 40
0
 40
0
 40
0
 40
0
 40
1
 40
1
 40
1
 40
1
 10
107.007112
 20
156.730724
 30
0.0
 10
105.804140
 20
156.162046
 30
0.0
 10
104.557071
 20
155.869946
 30
0.0
 10
103.197112
 20
156.122182
 30
0.0
  0
SPLINE
  5
17c
100
AcDbEntity
  8
noname
 62
7
100
AcDbSpline
 70
8
 71
3
 72
8
 73
4
 74
0
 40
0
 40
0
 40
0
 40
0
 40
1
 40
1
 40
1
 40
1
 10
103.197112
 20
156.122182
 30
0.0
 10
101.286821
 20
156.476724
 30
0.0
 10
99.836904
 20
157.572804
 30
0.0
 10
98.469890
 20
158.812113
 30
0.0
  0
SPLINE
  5
17d
100
AcDbEntity
  8
noname
 62
7
100
AcDbSpline
 70
8
 71
3
 72
8
 73
4
 74
0
 40
0
 40
0
 40
0
 40
0
 40
1
 40
1
 40
1
 40
1
 10
98.469890
 20
158.812113
 30
0.0
 10
99.204661
 20
159.285165
 30
0.0
 10
99.932098
 20
159.506055
 30
0.0
 10
100.657112
 20
159.535307
 30
0.0
  0
LWPOLYLINE
  5
17e
100
AcDbEntity
  8
noname
 62
7
100
AcDbPolyline
 90
2
 70
0
 10
109.211974
 20
162.895516
 30
0.0
 10
109.211974
 20
162.895516
 30
0.0
  0
SPLINE
  5
17f
100
AcDbEntity
  8
noname
 62
7
100
AcDbSpline
 70
8
 71
3
 72
8
 73
4
 74
0
 40
0
 40
0
 40
0
 40
0
 40
1
 40
1
 40
1
 40
1
 10
117.325862
 20
159.535307
 30
0.0
 10
118.195990
 20
159.592511
 30
0.0
 10
119.063513
 20
159.379777
 30
0.0
 10
119.945237
 20
158.812113
 30
0.0
  0
SPLINE
  5
180
100
AcDbEntity
  8
noname
 62
7
100
AcDbSpline
 70
8
 71
3
 72
8
 73
4
 74
0
 40
0
 40
0
 40
0
 40
0
 40
1
 40
1
 40
1
 40
1
 10
119.945237
 20
158.812113
 30
0.0
 10
118.578224
 20
157.572804
 30
0.0
 10
117.127954
 20
156.476724
 30
0.0
 10
115.218015
 20
156.122182
 30
0.0
  0
SPLINE
  5
181
100
AcDbEntity
  8
noname
 62
7
100
AcDbSpline
 70
8
 71
3
 72
8
 73
4
 74
0
 40
0
 40
0
 40
0
 40
0
 40
1
 40
1
 40
1
 40
1
 10
115.218015
 20
156.122182
 30
0.0
 10
113.857704
 20
155.869946
 30
0.0
 10
112.619101
 20
156.162046
 30
0.0
 10
111.416835
 20
156.730724
 30
0.0
  0
SPLINE
  5
182
100
AcDbEntity
  8
noname
 62
7
100
AcDbSpline
 70
8
 71
3
 72
8
 73
4
 74
0
 40
0
 40
0
 40
0
 40
0
 40
1
 40
1
 40
1
 40
1
 10
111.416835
 20
156.730724
 30
0.0
 10
111.956232
 20
156.825621
 30
0.0
 10
112.459293
 20
157.046813
 30
0.0
 10
112.898501
 20
157.392182
 30
0.0
  0
SPLINE
  5
183
100
AcDbEntity
  8
noname
 62
7
100
AcDbSpline
 70
8
 71
3
 72
8
 73
4
 74
0
 40
0
 40
0
 40
0
 40
0
 40
1
 40
1
 40
1
 40
1
 10
112.898501
 20
157.392182
 30
0.0
 10
114.425369
 20
158.591847
 30
0.0
 10
115.875649
 20
159.439967
 30
0.0
 10
117.325862
 20
159.535307
 30
0.0
  0
LWPOLYLINE
  5
184
100
AcDbEntity
  8
noname
 62
7
100
AcDbPolyline
 90
2
 70
0
 10
100.657112
 20
159.535307
 30
0.0
 10
100.657112
 20
159.535307
 30
0.0
  0
LWPOLYLINE
  5
185
100
AcDbEntity
  8
noname
 62
7
100
AcDbPolyline
 90
2
 70
0
 10
117.325862
 20
159.535307
 30
0.0
 10
117.325862
 20
159.535307
 30
0.0
  0
ENDSEC
  0
SECTION
  2
OBJECTS
  0
DICTIONARY
  5
C
330
0
100
AcDbDictionary
  3
ACAD_GROUP
350
D
  3
ACAD_MLINESTYLE
350
17
  0
DICTIONARY
  5
D
330
C
100
AcDbDictionary
  0
DICTIONARY
  5
1A
330
C
100
AcDbDictionary
  0
DICTIONARY
  5
17
330
C
100
AcDbDictionary
  3
STANDARD
350
18
  0
DICTIONARY
  5
19
330
C
100
AcDbDictionary
  0
ENDSEC
  0
EOF
